ISO-10303-21;
HEADER;
FILE_DESCRIPTION (( 'STEP AP203' ),
    '1' );
FILE_NAME ('Q-OZHWP-R2-20-2020-M.STEP',
    '2020-12-22T09:15:53',
    ( '' ),
    ( '' ),
    'SwSTEP 2.0',
    'SolidWorks 2020',
    '' );
FILE_SCHEMA (( 'CONFIG_CONTROL_DESIGN' ));
ENDSEC;

DATA;
#1 = PLANE ( 'NONE',  #95 ) ;
#2 = APPROVAL_PERSON_ORGANIZATION ( #310, #4, #230 ) ;
#3 = DIRECTION ( 'NONE',  ( -1.000000000000000000, -0.000000000000000000, -0.000000000000000000 ) ) ;
#4 = APPROVAL ( #208, 'UNSPECIFIED' ) ;
#5 = CARTESIAN_POINT ( 'NONE',  ( 3.000000000000000000, 0.000000000000000000, 12.69999999999999929 ) ) ;
#6 = UNCERTAINTY_MEASURE_WITH_UNIT (LENGTH_MEASURE( 1.000000000000000082E-05 ), #122, 'distance_accuracy_value', 'NONE');
#7 = PLANE ( 'NONE',  #264 ) ;
#8 = EDGE_CURVE ( 'NONE', #125, #46, #156, .T. ) ;
#9 = CALENDAR_DATE ( 2020, 22, 12 ) ;
#10 = DIRECTION ( 'NONE',  ( 0.000000000000000000, 0.000000000000000000, 1.000000000000000000 ) ) ;
#11 = CARTESIAN_POINT ( 'NONE',  ( 2.500000000000000888, 1.224646799147353256E-15, -10.00000000000000000 ) ) ;
#12 = FACE_OUTER_BOUND ( 'NONE', #45, .T. ) ;
#13 = FACE_OUTER_BOUND ( 'NONE', #333, .T. ) ;
#14 = APPLICATION_CONTEXT ( 'configuration controlled 3d designs of mechanical parts and assemblies' ) ;
#15 = EDGE_CURVE ( 'NONE', #301, #125, #302, .T. ) ;
#16 = AXIS2_PLACEMENT_3D ( 'NONE', #111, #58, #315 ) ;
#17 = DIRECTION ( 'NONE',  ( -1.000000000000000000, -0.000000000000000000, -0.000000000000000000 ) ) ;
#18 = CARTESIAN_POINT ( 'NONE',  ( -3.000000000000000444, 0.000000000000000000, 0.000000000000000000 ) ) ;
#19 = AXIS2_PLACEMENT_3D ( 'NONE', #18, #120, #216 ) ;
#20 = ORIENTED_EDGE ( 'NONE', *, *, #263, .T. ) ;
#21 = ORIENTED_EDGE ( 'NONE', *, *, #184, .F. ) ;
#22 = ORIENTED_EDGE ( 'NONE', *, *, #62, .T. ) ;
#23 = ORGANIZATION ( 'UNSPECIFIED', 'UNSPECIFIED', '' ) ;
#24 = EDGE_CURVE ( 'NONE', #306, #101, #177, .T. ) ;
#25 = EDGE_LOOP ( 'NONE', ( #20, #172 ) ) ;
#26 = PERSON_AND_ORGANIZATION_ROLE ( 'creator' ) ;
#27 = CARTESIAN_POINT ( 'NONE',  ( -1.614212418857619014, 0.000000000000000000, 10.00000000000000000 ) ) ;
#28 = DIRECTION ( 'NONE',  ( 0.000000000000000000, 0.000000000000000000, -1.000000000000000000 ) ) ;
#29 = AXIS2_PLACEMENT_3D ( 'NONE', #297, #61, #114 ) ;
#30 = APPROVAL_DATE_TIME ( #205, #4 ) ;
#31 = DIRECTION ( 'NONE',  ( 0.000000000000000000, 0.000000000000000000, 1.000000000000000000 ) ) ;
#32 = APPLICATION_CONTEXT ( 'configuration controlled 3d designs of mechanical parts and assemblies' ) ;
#33 = PERSON_AND_ORGANIZATION_ROLE ( 'classification_officer' ) ;
#34 = CARTESIAN_POINT ( 'NONE',  ( 3.000000000000000000, 0.000000000000000000, 0.000000000000000000 ) ) ;
#35 = DIRECTION ( 'NONE',  ( 0.000000000000000000, 0.000000000000000000, -1.000000000000000000 ) ) ;
#36 = CC_DESIGN_APPROVAL ( #4, ( #279 ) ) ;
#37 = DIRECTION ( 'NONE',  ( -1.000000000000000000, -0.000000000000000000, -0.000000000000000000 ) ) ;
#38 = DIRECTION ( 'NONE',  ( 0.000000000000000000, 0.000000000000000000, 1.000000000000000000 ) ) ;
#39 =( GEOMETRIC_REPRESENTATION_CONTEXT ( 3 ) GLOBAL_UNCERTAINTY_ASSIGNED_CONTEXT ( ( #6 ) ) GLOBAL_UNIT_ASSIGNED_CONTEXT ( ( #122, #195, #332 ) ) REPRESENTATION_CONTEXT ( 'NONE', 'WORKASPACE' ) );
#40 = SECURITY_CLASSIFICATION ( '', '', #153 ) ;
#41 = DIRECTION ( 'NONE',  ( -1.000000000000000000, -0.000000000000000000, -0.000000000000000000 ) ) ;
#42 = LINE ( 'NONE', #188, #330 ) ;
#43 = MANIFOLD_SOLID_BREP ( 'Ðý×', #152 ) ;
#44 = ORIENTED_EDGE ( 'NONE', *, *, #15, .T. ) ;
#45 = EDGE_LOOP ( 'NONE', ( #128, #174, #124, #245 ) ) ;
#46 = VERTEX_POINT ( 'NONE', #311 ) ;
#47 = CARTESIAN_POINT ( 'NONE',  ( 0.000000000000000000, 0.000000000000000000, 0.000000000000000000 ) ) ;
#48 = APPROVAL_PERSON_ORGANIZATION ( #275, #146, #314 ) ;
#49 = AXIS2_PLACEMENT_3D ( 'NONE', #34, #237, #288 ) ;
#50 = DATE_AND_TIME ( #77, #93 ) ;
#51 = APPROVAL ( #212, 'UNSPECIFIED' ) ;
#52 = DATE_AND_TIME ( #155, #326 ) ;
#53 = DIRECTION ( 'NONE',  ( -1.000000000000000000, -0.000000000000000000, -0.000000000000000000 ) ) ;
#54 = CYLINDRICAL_SURFACE ( 'NONE', #126, 10.00000000000000000 ) ;
#55 = CC_DESIGN_SECURITY_CLASSIFICATION ( #40, ( #279 ) ) ;
#56 = VECTOR ( 'NONE', #252, 1000.000000000000000 ) ;
#57 = CARTESIAN_POINT ( 'NONE',  ( 2.500000000000000444, 10.00000000000000000, 0.000000000000000000 ) ) ;
#58 = DIRECTION ( 'NONE',  ( -1.000000000000000000, -0.000000000000000000, -0.000000000000000000 ) ) ;
#59 = ADVANCED_FACE ( 'NONE', ( #138, #285 ), #1, .F. ) ;
#60 = DIRECTION ( 'NONE',  ( -1.000000000000000000, -0.000000000000000000, -0.000000000000000000 ) ) ;
#61 = DIRECTION ( 'NONE',  ( -1.000000000000000000, -0.000000000000000000, -0.000000000000000000 ) ) ;
#62 = EDGE_CURVE ( 'NONE', #147, #151, #281, .T. ) ;
#63 = DIRECTION ( 'NONE',  ( -1.000000000000000000, -0.000000000000000000, -0.000000000000000000 ) ) ;
#64 = CARTESIAN_POINT ( 'NONE',  ( 2.999999999999999112, 1.224646799147353256E-15, -10.00000000000000000 ) ) ;
#65 = CIRCLE ( 'NONE', #87, 10.00000000000000000 ) ;
#66 = FACE_OUTER_BOUND ( 'NONE', #246, .T. ) ;
#67 = EDGE_CURVE ( 'NONE', #101, #306, #207, .T. ) ;
#68 = ADVANCED_FACE ( 'NONE', ( #206 ), #7, .F. ) ;
#69 = PRODUCT_DEFINITION_SHAPE ( 'NONE', 'NONE',  #143 ) ;
#70 = CARTESIAN_POINT ( 'NONE',  ( -3.000000000000000000, 0.000000000000000000, 0.000000000000000000 ) ) ;
#71 = VERTEX_POINT ( 'NONE', #103 ) ;
#72 = VERTEX_POINT ( 'NONE', #309 ) ;
#73 = APPLICATION_PROTOCOL_DEFINITION ( 'international standard', 'config_control_design', 1994, #32 ) ;
#74 = EDGE_LOOP ( 'NONE', ( #22, #154, #201, #248 ) ) ;
#75 = PERSON_AND_ORGANIZATION ( #327, #23 ) ;
#76 = PERSON_AND_ORGANIZATION ( #327, #23 ) ;
#77 = CALENDAR_DATE ( 2020, 22, 12 ) ;
#78 = DIRECTION ( 'NONE',  ( 0.000000000000000000, 0.000000000000000000, 1.000000000000000000 ) ) ;
#79 = COORDINATED_UNIVERSAL_TIME_OFFSET ( 8, 0, .AHEAD. ) ;
#80 = DIRECTION ( 'NONE',  ( -1.000000000000000000, -0.000000000000000000, -0.000000000000000000 ) ) ;
#81 = CC_DESIGN_DATE_AND_TIME_ASSIGNMENT ( #105, #131, ( #143 ) ) ;
#82 = DIRECTION ( 'NONE',  ( 0.000000000000000000, 0.000000000000000000, 1.000000000000000000 ) ) ;
#83 = ADVANCED_FACE ( 'NONE', ( #209 ), #161, .F. ) ;
#84 = DIRECTION ( 'NONE',  ( 1.000000000000000000, 0.000000000000000000, 0.000000000000000000 ) ) ;
#85 = CARTESIAN_POINT ( 'NONE',  ( 3.000000000000000000, 0.000000000000000000, 0.000000000000000000 ) ) ;
#86 = DIRECTION ( 'NONE',  ( 0.000000000000000000, 0.000000000000000000, 1.000000000000000000 ) ) ;
#87 = AXIS2_PLACEMENT_3D ( 'NONE', #220, #116, #265 ) ;
#88 = APPROVAL_PERSON_ORGANIZATION ( #136, #51, #234 ) ;
#89 = DESIGN_CONTEXT ( 'detailed design', #32, 'design' ) ;
#90 = CARTESIAN_POINT ( 'NONE',  ( -1.614212418857619014, 0.000000000000000000, 0.000000000000000000 ) ) ;
#91 = ADVANCED_FACE ( 'NONE', ( #137 ), #182, .T. ) ;
#92 = DIRECTION ( 'NONE',  ( 1.000000000000000000, 0.000000000000000000, 0.000000000000000000 ) ) ;
#93 = LOCAL_TIME ( 17, 15, 53.00000000000000000, #259 ) ;
#94 = LINE ( 'NONE', #165, #271 ) ;
#95 = AXIS2_PLACEMENT_3D ( 'NONE', #102, #106, #183 ) ;
#96 = ORIENTED_EDGE ( 'NONE', *, *, #117, .F. ) ;
#97 = EDGE_CURVE ( 'NONE', #196, #199, #200, .T. ) ;
#98 = DIRECTION ( 'NONE',  ( 0.000000000000000000, 0.000000000000000000, 1.000000000000000000 ) ) ;
#99 = ORIENTED_EDGE ( 'NONE', *, *, #273, .T. ) ;
#100 = ORIENTED_EDGE ( 'NONE', *, *, #62, .F. ) ;
#101 = VERTEX_POINT ( 'NONE', #290 ) ;
#102 = CARTESIAN_POINT ( 'NONE',  ( -3.000000000000000000, 10.00000000000000000, 0.000000000000000000 ) ) ;
#103 = CARTESIAN_POINT ( 'NONE',  ( -3.000000000000000444, 1.224646799147353256E-15, -10.00000000000000000 ) ) ;
#104 = CC_DESIGN_PERSON_AND_ORGANIZATION_ASSIGNMENT ( #232, #308, ( #279 ) ) ;
#105 = DATE_AND_TIME ( #254, #132 ) ;
#106 = DIRECTION ( 'NONE',  ( 1.000000000000000000, 0.000000000000000000, 0.000000000000000000 ) ) ;
#107 = ADVANCED_FACE ( 'NONE', ( #180 ), #54, .F. ) ;
#108 = PERSON_AND_ORGANIZATION ( #327, #23 ) ;
#109 = DIRECTION ( 'NONE',  ( -1.000000000000000000, 0.000000000000000000, -0.000000000000000000 ) ) ;
#110 = PERSON_AND_ORGANIZATION ( #327, #23 ) ;
#111 = CARTESIAN_POINT ( 'NONE',  ( -1.614212418857619014, 0.000000000000000000, 0.000000000000000000 ) ) ;
#112 = CARTESIAN_POINT ( 'NONE',  ( -2.500000000000000444, 10.00000000000000000, 0.000000000000000000 ) ) ;
#113 = CC_DESIGN_PERSON_AND_ORGANIZATION_ASSIGNMENT ( #108, #257, ( #279 ) ) ;
#114 = DIRECTION ( 'NONE',  ( 0.000000000000000000, 0.000000000000000000, 1.000000000000000000 ) ) ;
#115 = AXIS2_PLACEMENT_3D ( 'NONE', #70, #37, #270 ) ;
#116 = DIRECTION ( 'NONE',  ( -1.000000000000000000, -0.000000000000000000, -0.000000000000000000 ) ) ;
#117 = EDGE_CURVE ( 'NONE', #125, #301, #289, .T. ) ;
#118 = FACE_OUTER_BOUND ( 'NONE', #244, .T. ) ;
#119 = PRODUCT ( 'Q-OZHWP-R2-20-2020-M', 'Q-OZHWP-R2-20-2020-M', '', ( #198 ) ) ;
#120 = DIRECTION ( 'NONE',  ( -1.000000000000000000, -0.000000000000000000, -0.000000000000000000 ) ) ;
#121 = AXIS2_PLACEMENT_3D ( 'NONE', #323, #17, #164 ) ;
#122 =( LENGTH_UNIT ( ) NAMED_UNIT ( * ) SI_UNIT ( .MILLI., .METRE. ) );
#123 = EDGE_LOOP ( 'NONE', ( #127, #329, #335, #99 ) ) ;
#124 = ORIENTED_EDGE ( 'NONE', *, *, #168, .T. ) ;
#125 = VERTEX_POINT ( 'NONE', #214 ) ;
#126 = AXIS2_PLACEMENT_3D ( 'NONE', #158, #260, #31 ) ;
#127 = ORIENTED_EDGE ( 'NONE', *, *, #312, .F. ) ;
#128 = ORIENTED_EDGE ( 'NONE', *, *, #287, .F. ) ;
#129 = CALENDAR_DATE ( 2020, 22, 12 ) ;
#130 = VECTOR ( 'NONE', #192, 1000.000000000000000 ) ;
#131 = DATE_TIME_ROLE ( 'creation_date' ) ;
#132 = LOCAL_TIME ( 17, 15, 53.00000000000000000, #157 ) ;
#133 = CARTESIAN_POINT ( 'NONE',  ( -1.614212418857619014, 0.000000000000000000, 0.000000000000000000 ) ) ;
#134 = CARTESIAN_POINT ( 'NONE',  ( -2.500000000000000444, 0.000000000000000000, 0.000000000000000000 ) ) ;
#135 = EDGE_CURVE ( 'NONE', #151, #147, #261, .T. ) ;
#136 = PERSON_AND_ORGANIZATION ( #327, #23 ) ;
#137 = FACE_OUTER_BOUND ( 'NONE', #74, .T. ) ;
#138 = FACE_BOUND ( 'NONE', #331, .T. ) ;
#139 = AXIS2_PLACEMENT_3D ( 'NONE', #283, #53, #235 ) ;
#140 = CARTESIAN_POINT ( 'NONE',  ( 2.500000000000000888, 0.000000000000000000, 10.00000000000000000 ) ) ;
#141 = DIRECTION ( 'NONE',  ( -1.000000000000000000, -0.000000000000000000, -0.000000000000000000 ) ) ;
#142 = DIRECTION ( 'NONE',  ( -1.000000000000000000, -0.000000000000000000, -0.000000000000000000 ) ) ;
#143 = PRODUCT_DEFINITION ( 'UNKNOWN', '', #279, #89 ) ;
#144 = DIRECTION ( 'NONE',  ( 0.000000000000000000, 0.000000000000000000, 1.000000000000000000 ) ) ;
#145 = CARTESIAN_POINT ( 'NONE',  ( -1.614212418857619014, 0.000000000000000000, 0.000000000000000000 ) ) ;
#146 = APPROVAL ( #247, 'UNSPECIFIED' ) ;
#147 = VERTEX_POINT ( 'NONE', #5 ) ;
#148 = APPLICATION_PROTOCOL_DEFINITION ( 'international standard', 'config_control_design', 1994, #14 ) ;
#149 = ORIENTED_EDGE ( 'NONE', *, *, #295, .F. ) ;
#150 = ORIENTED_EDGE ( 'NONE', *, *, #284, .F. ) ;
#151 = VERTEX_POINT ( 'NONE', #163 ) ;
#152 = CLOSED_SHELL ( 'NONE', ( #91, #238, #83, #68, #107, #211, #59, #228, #278, #217 ) ) ;
#153 = SECURITY_CLASSIFICATION_LEVEL ( 'unclassified' ) ;
#154 = ORIENTED_EDGE ( 'NONE', *, *, #287, .T. ) ;
#155 = CALENDAR_DATE ( 2020, 22, 12 ) ;
#156 = LINE ( 'NONE', #27, #56 ) ;
#157 = COORDINATED_UNIVERSAL_TIME_OFFSET ( 8, 0, .AHEAD. ) ;
#158 = CARTESIAN_POINT ( 'NONE',  ( -1.614212418857619014, 0.000000000000000000, 0.000000000000000000 ) ) ;
#159 = APPROVAL_DATE_TIME ( #210, #146 ) ;
#160 = DIRECTION ( 'NONE',  ( -0.000000000000000000, 0.000000000000000000, 1.000000000000000000 ) ) ;
#161 = CYLINDRICAL_SURFACE ( 'NONE', #256, 10.00000000000000000 ) ;
#162 = AXIS2_PLACEMENT_3D ( 'NONE', #187, #269, #189 ) ;
#163 = CARTESIAN_POINT ( 'NONE',  ( 3.000000000000000000, 1.555301434917138433E-15, -12.69999999999999929 ) ) ;
#164 = DIRECTION ( 'NONE',  ( 0.000000000000000000, 0.000000000000000000, 1.000000000000000000 ) ) ;
#165 = CARTESIAN_POINT ( 'NONE',  ( -1.614212418857619014, 0.000000000000000000, 10.00000000000000000 ) ) ;
#166 = LINE ( 'NONE', #262, #130 ) ;
#167 = PLANE ( 'NONE',  #162 ) ;
#168 = EDGE_CURVE ( 'NONE', #147, #72, #42, .T. ) ;
#169 = ORIENTED_EDGE ( 'NONE', *, *, #67, .T. ) ;
#170 = CIRCLE ( 'NONE', #115, 12.69999999999999929 ) ;
#171 = CC_DESIGN_APPROVAL ( #51, ( #40 ) ) ;
#172 = ORIENTED_EDGE ( 'NONE', *, *, #334, .T. ) ;
#173 = PRODUCT_RELATED_PRODUCT_CATEGORY ( 'detail', '', ( #119 ) ) ;
#174 = ORIENTED_EDGE ( 'NONE', *, *, #135, .T. ) ;
#175 = ORIENTED_EDGE ( 'NONE', *, *, #8, .T. ) ;
#176 = ORIENTED_EDGE ( 'NONE', *, *, #8, .F. ) ;
#177 = CIRCLE ( 'NONE', #193, 10.00000000000000000 ) ;
#178 = SHAPE_DEFINITION_REPRESENTATION ( #69, #179 ) ;
#179 = ADVANCED_BREP_SHAPE_REPRESENTATION ( 'Q-OZHWP-R2-20-2020-M', ( #43, #197 ), #39 ) ;
#180 = FACE_OUTER_BOUND ( 'NONE', #123, .T. ) ;
#181 = COORDINATED_UNIVERSAL_TIME_OFFSET ( 8, 0, .AHEAD. ) ;
#182 = CYLINDRICAL_SURFACE ( 'NONE', #16, 12.69999999999999929 ) ;
#183 = DIRECTION ( 'NONE',  ( 0.000000000000000000, 0.000000000000000000, -1.000000000000000000 ) ) ;
#184 = EDGE_CURVE ( 'NONE', #46, #71, #65, .T. ) ;
#185 = DIRECTION ( 'NONE',  ( -1.000000000000000000, -0.000000000000000000, -0.000000000000000000 ) ) ;
#186 = AXIS2_PLACEMENT_3D ( 'NONE', #134, #258, #35 ) ;
#187 = CARTESIAN_POINT ( 'NONE',  ( 2.999999999999999112, 12.69999999999999929, 0.000000000000000000 ) ) ;
#188 = CARTESIAN_POINT ( 'NONE',  ( -1.614212418857619014, 0.000000000000000000, 12.69999999999999929 ) ) ;
#189 = DIRECTION ( 'NONE',  ( -0.000000000000000000, 0.000000000000000000, 1.000000000000000000 ) ) ;
#190 = CYLINDRICAL_SURFACE ( 'NONE', #307, 12.69999999999999929 ) ;
#191 = VECTOR ( 'NONE', #41, 1000.000000000000000 ) ;
#192 = DIRECTION ( 'NONE',  ( -1.000000000000000000, -0.000000000000000000, -0.000000000000000000 ) ) ;
#193 = AXIS2_PLACEMENT_3D ( 'NONE', #213, #3, #82 ) ;
#194 = ORIENTED_EDGE ( 'NONE', *, *, #273, .F. ) ;
#195 =( NAMED_UNIT ( * ) PLANE_ANGLE_UNIT ( ) SI_UNIT ( $, .RADIAN. ) );
#196 = VERTEX_POINT ( 'NONE', #11 ) ;
#197 = AXIS2_PLACEMENT_3D ( 'NONE', #47, #98, #305 ) ;
#198 = MECHANICAL_CONTEXT ( 'NONE', #14, 'mechanical' ) ;
#199 = VERTEX_POINT ( 'NONE', #140 ) ;
#200 = CIRCLE ( 'NONE', #241, 10.00000000000000000 ) ;
#201 = ORIENTED_EDGE ( 'NONE', *, *, #263, .F. ) ;
#202 = EDGE_LOOP ( 'NONE', ( #169, #277 ) ) ;
#203 = VECTOR ( 'NONE', #63, 1000.000000000000000 ) ;
#204 = LOCAL_TIME ( 17, 15, 53.00000000000000000, #181 ) ;
#205 = DATE_AND_TIME ( #9, #318 ) ;
#206 = FACE_OUTER_BOUND ( 'NONE', #224, .T. ) ;
#207 = CIRCLE ( 'NONE', #139, 10.00000000000000000 ) ;
#208 = APPROVAL_STATUS ( 'not_yet_approved' ) ;
#209 = FACE_OUTER_BOUND ( 'NONE', #251, .T. ) ;
#210 = DATE_AND_TIME ( #129, #204 ) ;
#211 = ADVANCED_FACE ( 'NONE', ( #13 ), #219, .F. ) ;
#212 = APPROVAL_STATUS ( 'not_yet_approved' ) ;
#213 = CARTESIAN_POINT ( 'NONE',  ( 2.999999999999999112, 0.000000000000000000, 0.000000000000000000 ) ) ;
#214 = CARTESIAN_POINT ( 'NONE',  ( -2.500000000000000444, 0.000000000000000000, 10.00000000000000000 ) ) ;
#215 = CARTESIAN_POINT ( 'NONE',  ( -3.000000000000000000, 1.555301434917138433E-15, -12.69999999999999929 ) ) ;
#216 = DIRECTION ( 'NONE',  ( 0.000000000000000000, 0.000000000000000000, 1.000000000000000000 ) ) ;
#217 = ADVANCED_FACE ( 'NONE', ( #118 ), #239, .F. ) ;
#218 = AXIS2_PLACEMENT_3D ( 'NONE', #229, #84, #28 ) ;
#219 = CYLINDRICAL_SURFACE ( 'NONE', #121, 10.00000000000000000 ) ;
#220 = CARTESIAN_POINT ( 'NONE',  ( -3.000000000000000444, 0.000000000000000000, 0.000000000000000000 ) ) ;
#221 = LINE ( 'NONE', #325, #203 ) ;
#222 = CC_DESIGN_DATE_AND_TIME_ASSIGNMENT ( #52, #280, ( #40 ) ) ;
#223 = ORIENTED_EDGE ( 'NONE', *, *, #117, .T. ) ;
#224 = EDGE_LOOP ( 'NONE', ( #194, #272 ) ) ;
#225 = ORIENTED_EDGE ( 'NONE', *, *, #135, .F. ) ;
#226 = ORIENTED_EDGE ( 'NONE', *, *, #97, .T. ) ;
#227 = ORIENTED_EDGE ( 'NONE', *, *, #184, .T. ) ;
#228 = ADVANCED_FACE ( 'NONE', ( #12 ), #190, .T. ) ;
#229 = CARTESIAN_POINT ( 'NONE',  ( -2.500000000000000444, 0.000000000000000000, 0.000000000000000000 ) ) ;
#230 = APPROVAL_ROLE ( '' ) ;
#231 = VERTEX_POINT ( 'NONE', #215 ) ;
#232 = PERSON_AND_ORGANIZATION ( #327, #23 ) ;
#233 = DIRECTION ( 'NONE',  ( 0.000000000000000000, 0.000000000000000000, 1.000000000000000000 ) ) ;
#234 = APPROVAL_ROLE ( '' ) ;
#235 = DIRECTION ( 'NONE',  ( 0.000000000000000000, 0.000000000000000000, 1.000000000000000000 ) ) ;
#236 = CC_DESIGN_APPROVAL ( #146, ( #143 ) ) ;
#237 = DIRECTION ( 'NONE',  ( -1.000000000000000000, -0.000000000000000000, -0.000000000000000000 ) ) ;
#238 = ADVANCED_FACE ( 'NONE', ( #293 ), #242, .F. ) ;
#239 = PLANE ( 'NONE',  #324 ) ;
#240 = DIRECTION ( 'NONE',  ( -1.000000000000000000, -0.000000000000000000, -0.000000000000000000 ) ) ;
#241 = AXIS2_PLACEMENT_3D ( 'NONE', #255, #185, #78 ) ;
#242 = CYLINDRICAL_SURFACE ( 'NONE', #267, 10.00000000000000000 ) ;
#243 = FACE_BOUND ( 'NONE', #202, .T. ) ;
#244 = EDGE_LOOP ( 'NONE', ( #96, #274 ) ) ;
#245 = ORIENTED_EDGE ( 'NONE', *, *, #334, .F. ) ;
#246 = EDGE_LOOP ( 'NONE', ( #100, #225 ) ) ;
#247 = APPROVAL_STATUS ( 'not_yet_approved' ) ;
#248 = ORIENTED_EDGE ( 'NONE', *, *, #168, .F. ) ;
#249 = CC_DESIGN_PERSON_AND_ORGANIZATION_ASSIGNMENT ( #75, #303, ( #119 ) ) ;
#250 = APPROVAL_DATE_TIME ( #50, #51 ) ;
#251 = EDGE_LOOP ( 'NONE', ( #276, #328, #226, #149 ) ) ;
#252 = DIRECTION ( 'NONE',  ( -1.000000000000000000, -0.000000000000000000, -0.000000000000000000 ) ) ;
#253 = CIRCLE ( 'NONE', #29, 12.69999999999999929 ) ;
#254 = CALENDAR_DATE ( 2020, 22, 12 ) ;
#255 = CARTESIAN_POINT ( 'NONE',  ( 2.500000000000000888, 0.000000000000000000, 0.000000000000000000 ) ) ;
#256 = AXIS2_PLACEMENT_3D ( 'NONE', #133, #80, #10 ) ;
#257 = PERSON_AND_ORGANIZATION_ROLE ( 'creator' ) ;
#258 = DIRECTION ( 'NONE',  ( 1.000000000000000000, 0.000000000000000000, 0.000000000000000000 ) ) ;
#259 = COORDINATED_UNIVERSAL_TIME_OFFSET ( 8, 0, .AHEAD. ) ;
#260 = DIRECTION ( 'NONE',  ( -1.000000000000000000, -0.000000000000000000, -0.000000000000000000 ) ) ;
#261 = CIRCLE ( 'NONE', #317, 12.69999999999999929 ) ;
#262 = CARTESIAN_POINT ( 'NONE',  ( -1.614212418857619014, 1.224646799147353256E-15, -10.00000000000000000 ) ) ;
#263 = EDGE_CURVE ( 'NONE', #72, #231, #253, .T. ) ;
#264 = AXIS2_PLACEMENT_3D ( 'NONE', #57, #109, #160 ) ;
#265 = DIRECTION ( 'NONE',  ( 0.000000000000000000, 0.000000000000000000, 1.000000000000000000 ) ) ;
#266 = DIRECTION ( 'NONE',  ( -1.000000000000000000, -0.000000000000000000, -0.000000000000000000 ) ) ;
#267 = AXIS2_PLACEMENT_3D ( 'NONE', #145, #142, #38 ) ;
#268 = CARTESIAN_POINT ( 'NONE',  ( -1.614212418857619014, 1.224646799147353256E-15, -10.00000000000000000 ) ) ;
#269 = DIRECTION ( 'NONE',  ( -1.000000000000000000, 0.000000000000000000, -0.000000000000000000 ) ) ;
#270 = DIRECTION ( 'NONE',  ( 0.000000000000000000, 0.000000000000000000, 1.000000000000000000 ) ) ;
#271 = VECTOR ( 'NONE', #266, 1000.000000000000000 ) ;
#272 = ORIENTED_EDGE ( 'NONE', *, *, #97, .F. ) ;
#273 = EDGE_CURVE ( 'NONE', #199, #196, #286, .T. ) ;
#274 = ORIENTED_EDGE ( 'NONE', *, *, #15, .F. ) ;
#275 = PERSON_AND_ORGANIZATION ( #327, #23 ) ;
#276 = ORIENTED_EDGE ( 'NONE', *, *, #24, .F. ) ;
#277 = ORIENTED_EDGE ( 'NONE', *, *, #24, .T. ) ;
#278 = ADVANCED_FACE ( 'NONE', ( #66, #243 ), #167, .F. ) ;
#279 = PRODUCT_DEFINITION_FORMATION_WITH_SPECIFIED_SOURCE ( 'ANY', '', #119, .NOT_KNOWN. ) ;
#280 = DATE_TIME_ROLE ( 'classification_date' ) ;
#281 = CIRCLE ( 'NONE', #49, 12.69999999999999929 ) ;
#282 = COORDINATED_UNIVERSAL_TIME_OFFSET ( 8, 0, .AHEAD. ) ;
#283 = CARTESIAN_POINT ( 'NONE',  ( 2.999999999999999112, 0.000000000000000000, 0.000000000000000000 ) ) ;
#284 = EDGE_CURVE ( 'NONE', #71, #46, #300, .T. ) ;
#285 = FACE_OUTER_BOUND ( 'NONE', #25, .T. ) ;
#286 = CIRCLE ( 'NONE', #296, 10.00000000000000000 ) ;
#287 = EDGE_CURVE ( 'NONE', #151, #231, #221, .T. ) ;
#288 = DIRECTION ( 'NONE',  ( 0.000000000000000000, 0.000000000000000000, 1.000000000000000000 ) ) ;
#289 = CIRCLE ( 'NONE', #186, 10.00000000000000000 ) ;
#290 = CARTESIAN_POINT ( 'NONE',  ( 2.999999999999999112, 0.000000000000000000, 10.00000000000000000 ) ) ;
#291 = ORIENTED_EDGE ( 'NONE', *, *, #322, .F. ) ;
#292 = CC_DESIGN_PERSON_AND_ORGANIZATION_ASSIGNMENT ( #110, #33, ( #40 ) ) ;
#293 = FACE_OUTER_BOUND ( 'NONE', #304, .T. ) ;
#294 = CARTESIAN_POINT ( 'NONE',  ( -2.500000000000000444, 1.224646799147353256E-15, -10.00000000000000000 ) ) ;
#295 = EDGE_CURVE ( 'NONE', #101, #199, #94, .T. ) ;
#296 = AXIS2_PLACEMENT_3D ( 'NONE', #316, #240, #86 ) ;
#297 = CARTESIAN_POINT ( 'NONE',  ( -3.000000000000000000, 0.000000000000000000, 0.000000000000000000 ) ) ;
#298 = LINE ( 'NONE', #268, #191 ) ;
#299 = ORIENTED_EDGE ( 'NONE', *, *, #284, .T. ) ;
#300 = CIRCLE ( 'NONE', #19, 10.00000000000000000 ) ;
#301 = VERTEX_POINT ( 'NONE', #294 ) ;
#302 = CIRCLE ( 'NONE', #218, 10.00000000000000000 ) ;
#303 = PERSON_AND_ORGANIZATION_ROLE ( 'design_owner' ) ;
#304 = EDGE_LOOP ( 'NONE', ( #223, #313, #299, #176 ) ) ;
#305 = DIRECTION ( 'NONE',  ( 1.000000000000000000, 0.000000000000000000, 0.000000000000000000 ) ) ;
#306 = VERTEX_POINT ( 'NONE', #64 ) ;
#307 = AXIS2_PLACEMENT_3D ( 'NONE', #90, #319, #144 ) ;
#308 = PERSON_AND_ORGANIZATION_ROLE ( 'design_supplier' ) ;
#309 = CARTESIAN_POINT ( 'NONE',  ( -3.000000000000000000, 0.000000000000000000, 12.69999999999999929 ) ) ;
#310 = PERSON_AND_ORGANIZATION ( #327, #23 ) ;
#311 = CARTESIAN_POINT ( 'NONE',  ( -3.000000000000000444, 0.000000000000000000, 10.00000000000000000 ) ) ;
#312 = EDGE_CURVE ( 'NONE', #306, #196, #166, .T. ) ;
#313 = ORIENTED_EDGE ( 'NONE', *, *, #322, .T. ) ;
#314 = APPROVAL_ROLE ( '' ) ;
#315 = DIRECTION ( 'NONE',  ( 0.000000000000000000, 0.000000000000000000, 1.000000000000000000 ) ) ;
#316 = CARTESIAN_POINT ( 'NONE',  ( 2.500000000000000888, 0.000000000000000000, 0.000000000000000000 ) ) ;
#317 = AXIS2_PLACEMENT_3D ( 'NONE', #85, #60, #233 ) ;
#318 = LOCAL_TIME ( 17, 15, 53.00000000000000000, #282 ) ;
#319 = DIRECTION ( 'NONE',  ( -1.000000000000000000, -0.000000000000000000, -0.000000000000000000 ) ) ;
#320 = CC_DESIGN_PERSON_AND_ORGANIZATION_ASSIGNMENT ( #76, #26, ( #143 ) ) ;
#321 = DIRECTION ( 'NONE',  ( 0.000000000000000000, 0.000000000000000000, -1.000000000000000000 ) ) ;
#322 = EDGE_CURVE ( 'NONE', #301, #71, #298, .T. ) ;
#323 = CARTESIAN_POINT ( 'NONE',  ( -1.614212418857619014, 0.000000000000000000, 0.000000000000000000 ) ) ;
#324 = AXIS2_PLACEMENT_3D ( 'NONE', #112, #92, #321 ) ;
#325 = CARTESIAN_POINT ( 'NONE',  ( -1.614212418857619014, 1.555301434917138433E-15, -12.69999999999999929 ) ) ;
#326 = LOCAL_TIME ( 17, 15, 53.00000000000000000, #79 ) ;
#327 = PERSON ( 'UNSPECIFIED', 'UNSPECIFIED', 'UNSPECIFIED', ('UNSPECIFIED'), ('UNSPECIFIED'), ('UNSPECIFIED') ) ;
#328 = ORIENTED_EDGE ( 'NONE', *, *, #312, .T. ) ;
#329 = ORIENTED_EDGE ( 'NONE', *, *, #67, .F. ) ;
#330 = VECTOR ( 'NONE', #141, 1000.000000000000000 ) ;
#331 = EDGE_LOOP ( 'NONE', ( #21, #150 ) ) ;
#332 =( NAMED_UNIT ( * ) SI_UNIT ( $, .STERADIAN. ) SOLID_ANGLE_UNIT ( ) );
#333 = EDGE_LOOP ( 'NONE', ( #291, #44, #175, #227 ) ) ;
#334 = EDGE_CURVE ( 'NONE', #231, #72, #170, .T. ) ;
#335 = ORIENTED_EDGE ( 'NONE', *, *, #295, .T. ) ;
ENDSEC;
END-ISO-10303-21;
